Чайф – Камарека, аккорды

Вступление: F G C }x2 
 
Партия 1:
  Am   G       C   Am       F   G      C
E|--8--5--3-5--0-----0--3--0-----------8--5--3-5--0-------|
B|----------------3-----------3-1--------------------3-1--|

     C
Я с надеждой смотрю в эту чистую воду,
G       C
Камарека, дай мне свободу,
     C
Помоги мне быть новым с каждым рассветом
     G          C
Через Волгу в Каспий следующим летом.

     Am          G
Там зачечь огонь на заброшенном пляже,
      F           C
И быть может понять что чужое, что наше,
     Am             G
И на время забыть, что мы все игроки,
 F   G     C
Камарека, помоги.

Партия 1:
  Am   G       C   Am       F   G      C
E|--8--5--3-5--0-----0--3--0-----------8--5--3-5--0-------|
B|----------------3-----------3-1--------------------3-1--|

     C
Ты напоешь меня посой спозаранку,
G       C
Ты мне простишь эту вечную пьянку,
     C
Ты согреешь меня своим бабьим летом,
     G       C
И, может быть, здесь найду я ответы.

     Am          G
Будем пьёт по ночам любимые песни,
      F           C
Раздавать друг другу награды из жести
     Am          G
И на время забудет, что мы все игроки,
 F   G     C
Камарека, помоги.

Партия 1:
  Am   G       C   Am       F   G      C
E|--8--5--3-5--0-----0--3--0-----------8--5--3-5--0-------|
B|----------------3-----------3-1--------------------3-1--|

     C
Ты умеешь хранить холод талого снега,
G       C
У тебя глубина звёздного неба,
     C
И мы видим в воде своё отраженье,
     G       C
И, глядя в себя, мы просим прощения.

     Am          G
И зажжём огонь на заброшенном пляже,
      F           C
И быть может поймём что чужое, что наше,
     Am          G
И на время забудем, что мы все игроки,
 F   G     C
Камарека, помоги.

Партия 2:
  Am       G     F        C   Am      G
E|---------------3-0-3-5-5-8--5--8--12----12--10--8--5--3--0-|
B|-5-3-1-1--3--5---------------------------------------------|
G|-----------------------------------------------------------|

  F       G    C
E|-----------------------|
B|-5--3--1-----1--1-3-1--|
G|----------2------------|

     Am          G
Будем петь по ночам любимые песни,
      F           C
Раздавать друг другу награды из жести,
     Am          G
И забыть, что мы уже почти старики,
 F   G     C
Камарека, помоги, камарека, помоги,
 F   G     C
Камарека, помоги.

Партия 1: x2
  Am   G       C   Am       F   G      C
E|--8--5--3-5--0-----0--3--0-----------8--5--3-5--0-------|
B|----------------3-----------3-1--------------------3-1--|

Оставьте комментарий

Ваш адрес email не будет опубликован.