Чайф – Шаляй валяй, аккорды

Вступление: x2 
1|------------------------------------------------
2|------------------------------------------------
3|------------------------------------------------
 
4|7---7-9---9-7---7-9---9-4---4-5---5-4---4-5---5-
5|5---5-5---5-5---5-5---5-2---2-2---2-2---2-2---2-
6|------------------------------------------------

1|------------------------------------------------
2|------------------------------------------------
3|------------------------------------------------
4|7---7-9---9-7---7-9---9-4---4-5---5-4---4-5---5-
5|5---5-5---5-5---5-5---5-2---2-2---2-2---2-2---2-
6|------------------------------------------------
     Не гони нас дядя из подъезда

1|------------------------------------------------
2|------------------------------------------------
3|------------------------------------------------
4|7---7-9---9-7---7-9---9-2---2-4---4-2---2-4---4-
5|5---5-5---5-5---5-5---5-0---0-0---0-0---0-0---0-
6|------------------------------------------------
    Мы не будем больше громко петь
    Мы не будем больше пить, материться и курить
    Ну а если вдруг захочешь, сам лучше нас не приглашай

1|----------------------------
2|----------------------------
3|----------------------------
4|-7---7-9---9-7---7-9---9----
5|-5---5-5---5-5---5-5---5----
6|----------------------------    A
  Мы прощаемся сегодня с ним... Шаляй-Валяй
D                  Bm
 До свиданья, милый друг... Шаляй-Валяй
D                  Bm
 Ты уходишь как-то вдруг... Шаляй-Валяй
G                      A(V)
 Ты уходишь не простившись, ты уходишь невзначай
        D            A(V)
 Так до свиданья, милый друг... Шаляй-Валяй

Проигрыш:
1|---5/7/5/----2--5--7--5--7--10/12/---10--5--7---
2|------------------------------------------------
3|------------------------------------------------

1|-7--5--2--5/7/5--2--5--7-
2|-------------------------
3|-------------------------

1|-5--7--10/12/---10--5--7----7--5--2----5-0---5--
2|-------------------------------------5-----5----
3|------------------------------------------------

1|-0---5-0----------------2-
2|--5-----5----------3-5----
3|-------------0-2-4--------

1|-5---5--2-------2-5-0----
2|-----------5-------------
3|-------------------------
                    ...Шаляй-Валяй

D                      Bm
 Я думал у нас в запасе, еще как минимум лет пять
D
 Я был просто уверен что у нас хватит
         Bm
 время попить пиво и поболтать, но
G                       A(V)
 Но вот я вижу твою спину с трафаретом "Не скучай"
        D             A(V)
 Стой задержись хотяб на день...    Шаляй-Валяй

Проигрыш: D Bm D Bm

G                A(V)
 О-о-о-о-о-о-о-о о о о о-о-о-о
D        Bm      G       A(V)
 О-о-о-о-о-о о-о-о-о-о о-о-о-о-о о-о-о-о
D 
 оо-о-о-о-о-о-о

Оставьте комментарий

Ваш адрес email не будет опубликован.