Чайф – Соня любит Петю, аккорды

Intro:
  G     C     D     Dsus4 G
E|-----3-------0-------2---2h3----3--|
B|-3-------1-------3-------3-2---3---|
G|---0---0---0---0---2---2------0----|
D|-----------------0-----------------|
A|---------3-------------------------|
E|-3---------------------------3-----|

Куплет: Она приносит чистоту ... (потом вступает гитара)

  С          Am7 Am7/B   Am   Am/G   F
E|---------0---------------0---------------0-------------------|
B|-1---1-----1---1-1---1---------1---1-------1-----1---0h1-----|
G|---0---0-----0-----0---0---0-----2-----2-------2---2-----2---|
D|---------------------------------------------3-------------3-|
A|-3---------------0---2-------0-------------------------------|
E|-------------------------------------3-----------------------|
           в ве - дре во- ды     субботний   ушла ска-
                            день сестра

  А7 A13- Dm         F         G G/A G/B G/C
E|-----0-1-1-------1--0h1--------1-----1-----------------3-----|
B|-2---------3---3------------1-1----1---3---3---3---3---------|
G|---0---------2------------2--2---2-------0---0---0---0-------|
D|---------0--------------3------------------------------------|
A|-0-----------------------------------------0---2---3---------|
E|---------------------------------------3---------------------|
зав ей вытри пыль твой дом      ждёт  у- бор-ки

  С          F         Am7 Am7/B Am   Am/G
E|-------------0----------1-----1----------0-------------0-----|
B|-1---0-1---1---1-----1-1----1----1---1-------1---1-------1---|
G|---0-----0---------2--2---2--------0---0-------2-----2-------|
D|-----------------3-------------------------------------------|
A|-3-------------------------------0---2-----0-----------------|
E|---------------------------------------------------3---------|
 она снимает Бельмондо       он здесь висел.........

Припев:
  C     C     F     G   D
E|-----0-------0-------1----------|
B|-1-------1-------1-------3-3-3-3|
G|---0---0---0---0---2---2--------|
D|-----------------3-------------0| 3 раза
A|-3-------3-----------------0-2--|
E|-------------------------3------|
Соня   Соня  Соня любит только петю...

  С     С     F     F     G G/A G/B
E|-----0-------0-------1-------1---------------3--|
B|-1-------1-------1-------1-------3---3---3-----3|
G|---0---0---0---0---2---2---2---2---0---0---0----|
D|-----------------3-------3----------------------|
A|-3-------3---------------------------0---2------|
E|---------------------------------3--------------|
 Петя  Петя   у-уу

2ой куплет:
  C            F         Am7 Am7/B Am
E|----0----------------------1-----1---------0-------------0---|
B|---1--------------------1-1----1---1---1---------1---1-----1-|
G|--0-------------------2--2---2-------0---0-----2---2---2-----|
D|--------------------3----------------------------------------|
A|-3---------------------------------0---2-----0---------------|
E|-------------------------------------------------------------|
    дин-дон проснётся          тру- ба зо-вёт
     телефон

              Припев:             Outro:
  F     G G/A G/B C   и т.д.   C
E|-------1-----------------0------|---------0------------------|
B|-----1---3---3---3---1----------|-----0h1---1----------------|
G|---2-------0---0---0---0---0----|-------------0--------------|
D|-3------------------------------|----------------------------|
A|-------------0---2---3----------|-----3----------------------|
E|---------3----------------------|----------------------------|

Оставьте комментарий

Ваш адрес email не будет опубликован.