Виктор Цой — Игра, аккорды

Intro:
e|--5---------------------|--0---------------------|
B|--5--5-----5--5----5----|--3--3--3----3--3--3----|
G|--5-----5--5--7----5----|--4--5--4----4--5--4----| x2
D|--7-----------7---------|--5----------5----------|
A|------------------------|------------------------|
E|------------------------|------------------------|

e|--8---------------------|--0---------------------|
B|--5--5-----5--5----5----|--3--3--3----3--3--3----|
G|--5-----5--5--7----5----|--4--5--4----4--5--4----|
D|--5-----------5---------|--5----------5----------|
A|------------------------|------------------------|
E|------------------------|------------------------|

e|--5---------------------|--0-----------------------|
B|--5--5-----5--5----5----|--3--3--3--3--3--3--3--3--|
G|--5-----5--5--7----5----|--4--5--4--5--4--5--4--5--|
D|--7-----------7---------|--5-----------5-----------|
A|------------------------|--------------------------|
E|------------------------|--------------------------|
 
Am      Fmaj7   G6        Cmaj9   Am
Уже поздно, все спят, и тебе пора спать
           Fmaj7  G6     Cmaj9  C 
Завтра в восемь утра начнётся игра
       G7sus4   G6      Cmaj9    Am Asus4 G6
Завтра солнце встанет в восемь утра
Am        Fmaj7  G6           Cmaj9    Am
Крепкий утренний чай, крепкий утренний лёд
         Fmaj7  G6      Cmaj9       C 
Два из правил игры, а нарушишь - пропал
       G7sus4   G6       Cmaj9        Am  Asus4 G6
Завтра утром ты будешь жалеть, что не спал

        Am    Amadd9   Dm9    D7sus2 G      G6  
  Но сейчас деревья стучат ветвями в стёкла     
  Am        Amadd9   Dm9      D7sus2   G    G6  
  Ты можешь лечь и уснуть, и убить эту ночь     
  Am           Amadd9   Dm9    D7sus2 G      G6 
  Деревья, как звери, царапают тёмные стёкла    
  Am          Amadd9 Dm9     D7sus2      G    G6
  Пока ещё не поздно лечь и уснуть в эту ночь   

Instrumental:
Am Fmaj7  G6 Cmaj9 Am Fmaj7 G6 Cmaj9
C  G7sus4 G6 Cmaj9 Am Fmaj7 G6 G6
Am Fmaj7  G6 Cmaj9 Am Fmaj7 G6 Cmaj9
C  G7sus4 G6 Cmaj9 Am Fmaj7 G6 G6

Am     Fmaj7     G6      Cmaj9    Am
Ни звонков, ни шагов, ни звона ключей
      Fmaj7  G6      Cmaj9   C 
Еле слышно часы у кровати стучат
       G7sus4 G6     Cmaj9  Am   Asus4 G6
В этом доме   все давно уже спят
Am       Fmaj7  G6        Cmaj9   Am
Только капля за каплей из крана вода
         Fmaj7  G6        Cmaj9   C 
Только капля за каплей из времени дни
      G7sus4      G6      Cmaj9       Am  Asus4 G6
Ты пойдёшь рубить лес, а увидишь лишь пни

        Am    Amadd9   Dm9    D7sus2 G      G6  
  Но сейчас деревья стучат ветвями в стёкла     
  Am        Amadd9   Dm9      D7sus2   G    G6  
  Ты можешь лечь и уснуть, и убить эту ночь     
  Am           Amadd9   Dm9    D7sus2 G      G6 
  Деревья, как звери, царапают тёмные стёкла    
  Am          Amadd9 Dm9     D7sus2      G    G6
  Пока ещё не поздно лечь и уснуть в эту ночь   

Outro:
Am  Dm9  G  G6  x6

Добавить комментарий

Ваш адрес email не будет опубликован.